Música
Vídeo Aula


Intro: C9  Bb9  C9  Bb9














E|-15~---15/17-13-15-12-13/15-13-12-------13-12/13-----------------------------------|
B|----13---------------------------13-------------13-13/15-----13--15----------------|
G|-----------------------------------14-14----------------12-12--12------------------|
D|-----------------------------------------------------------------------------------|
A|-----------------------------------------------------------------------------------|
E|-----------------------------------------------------------------------------------|

E|-15~---15/17-17/19-15-12/13----12/13----12/13---------------------------------------------------|
B|----13---------------------13-------13------13--------------------------------------------------|
G|-----------------------------14-------14------14--12/14--12-------------------------------------|
D|-------------------------------------------------------14--14-12-14-12--10/12--10~--------------|
A|------------------------------------------------------------------------------------------------|
E|------------------------------------------------------------------------------------------------|


 C9                                                                       F
Mesmo sendo assim pobre e pecador Deus  me ama
 C9                                                                             F
Mesmo sendo falho, mesmo sem merecer Deus  me ama

 C9                                                                  F
Se eu estou forte, se eu estou de pé Deus  me ama
 C9                                                                                F
Se eu estou fraco, se eu estou caído Ele não deixa de me amar

 C9                                                                           F
Sem o seu amor, sem o seu perdão o que seria de mim
 C9                                                                                                  F
Deus me amou tanto que entregou seu filho pra morrer em meu lugar

 C9
Deus me ama
                      Bb9
O seu amor é tão grande, incondicional
  C9
Deus me ama
                        Bb9
E ele esta sempre de braços abertos pra mim

Solo: C9  Bb9

Compartilhem nas Redes Sociais

Comentários!